JUNKIE DOLL - табы

Подобрал - GЖkay Ersoy

h= hammer on
p= pull off
/ =  slide
b= bend
( )= grace note

Первое соло
1:26                                  ??????
- ------------------------------------------------------------------
- ------------------------------------------------------------------
- ------------------------------------------------------------------
- -----8p6---------8b----6---6------6---6---------------------------
- -8-------8--6h8--8b------8----/6----8--8-6------------------------
- -6------------------------------------------9-6-------------------

1:31
- ------------------------------------------------------------------
- --/6b-6-6---4h6-4---4b------4-------------------------------------
- ------------------6---6--3----6--3-3----8bp6----8b----------------
- ---------------------------------------------(8)------------------
- ------------------------------------------------------------------
- ------------------------------------------------------------------

1:38
- ------------------------------------------------------------------
- --6-4--4-2---2--2-------------------------------------------------
- -----------3------3-----------------------------------------------
- ------------------------8p-6--------------------------------------
- -----------------------------8--8p-6------------------------------
- -------------------------------------9--6-------------------------

1:42
- --------------------------------------6b--------------------------
- --------------------------6--------------9-6----------------------
- -----6--8p6--6----------8b---8p6-------------8b-------------------
- ---8-----------8-6-8-------------8-8------------------------------
- (8b)--------------------------------------------------------------
- ------------------------------------------------------------------

1:50                                             turnpike...
- ------------------------------------------------------------------
- -------6----------------------------------------------------------
- --6h-8-----8p-6---------------8p6---------------------------------
- ----------------8-8--8--6------------8p6--------------------------
- -------------------------/8-8------------8-8-8p6------------------
- -------------------------------------------------9-6---1-1-1------

Второе соло
2:55
- ----------1-----1-----------1--------------------------------------
- ----2h4b-------2---4-4---4-2---4-2-----------------1---------------
- --3--------------------------------3-(3)--1h3-1h3-----3------------
- --------------------------------------------------3----------------
- -------------------------------------------------------------------
- -------------------------------------------------------------------

3:04
- ------------1-----------1--4--------2b(4)-4-2-1--------------------
- -1h2--4-1h2---2p1-------------4-4----------------------------------
- -------------------3-3---------------------------3-3---------------
- -------------------------------------------------------------------
- -------------------------------------------------------------------
- -------------------------------------------------------------------

3:13
- -------------------------------------------------------------------
- ----------1----------2b-----6b--4b------6br4-----------------------
1h-3--1-----3(3)-----------------------6----6----------------------
- -------3-----------------------------------------------------------
- -------------------------------------------------------------------
- -------------------------------------------------------------------

3:25
- -------------------------------------1--4-3---2b--4-2-1-------------
- ------1---1----------1h2p1------------------------------------------
- ----1---1----3-----(3)------3-1h3-----------------------3-2---------
- --3-----------------------------------------------------------------
- --------------------------------------------------------------------
- --------------------------------------------------------------------

3:36
- ---------------------------------------------------------------------
- --------------1-------2p1--------------------------------------------
- --1h3-1h3---1---3---3-----3-1-3p1------------------------------------
- -----------3----------------------3-1-3-1----------------------------
- ------------------------------------------1-(1)----------------------
- ---------------------------------------------------------------------

3:45
- --6b--4--------------------------------------------------------------
- ---------6-4--6p4------------6-4---4h6-4---4-----------1-------------
- ------------------3----(3)/6-------------6---3-------1---3-----------
- ------------------------------------------------1h-3-----------------
- ---------------------------------------------------------------------
- ---------------------------------------------------------------------

3:54
- ---1-------------1---------------------------------------------------
- -2----4-----4-2-----4--4p2-----------------------------------6-4-....
- ---------------------------3----1h-3-1--3-1-3-1--0-1-0---------------
- -------------------------------------------------------/5------------
- ---------------------------------------------------------------------
- ---------------------------------------------------------------------


Если что непонятно, то пишите. Объясню.
 


Эта страница является частью сайта о Dire Straits. Навигация без фреймов - невозможна. Если вы не видите меню слева, то нажмите

Современная встраиваемая посудомоечная машина bosch там. Трионика Украина - создание web сайта, продвижение бизнеса Рассылка 'Все о группе Dire Straits. Новости сайта.'  TopList