DO AMERICA - аккорды

D
Well I have been it every since I was a kid at school
Now they love me in Newcastle and in Liverpool
I am as hard as a pistol I can't do no wrong
I've been in Birmingham and Bristol to play my song


D
Take the 777 to the USA gonna party all night and gonna
sleep all day
seen the New York City cause I never been
New York City in a limousine

G D
gonna do america do do America

E    A      Bb C D
do america do do america now


D
Take the 777 over to LA gonna party all night and gonna
sleep all day
wake up and drive around 
Get the coolest girl in town

G D
do america do do America

E    A D
do america do do america now


A   D   G     D     A
Now the people go nah nah another people go wah wah another
  D   A
people go gah gah

A
do america do do America

D
do america do do America

G
do america do do America

E    A Bb C D
do america do do america now


<Соло-гитара> (D - G - D - E - A - Bb - C - D)


D
Backstagepasses for the food and booze
sunglasses from the interviews
statue of liberty
everybody looking at me


G D
do america do do America

E    A      D
do america do do america now

G D
do america do do America

E    A      Bb C D
do america do do america now


D    D/C
do america do do America

G/H        G/Bb
do america do do America

D    D/C
do america do do America

G/H        G/Bb
do america do do America


D    D/C
do america do do America

G/H        G/Bb
do america do do America

E
do america do do America

A    A/G
do america do do America


D/F#    D/C
do america do do America

G/H        G/Bb
do america do do America

...
D    D/C
do america do do America

G/H        G/Bb
do america do do america

 
  DO AMERICA - табы

Подобрал - Olli RДsДnen

h= hammer on
p= pull off
/= slide up
\= slide down
~= vibrato
x= положите палец на струну и ударьте по ней, но не зажимайте её на ладу.

Вступление - this one is played here and there.
e[-------------------------------13------------2---------------------------]
B[------10-------13-------13-15~----15~\-------t---------------------------]
G[-9/11----11/14----11/14----------------------i---------------------------]
D[---------------------------------------------m---------------------------]
A[---------------------------------------------e---------------------------]
E[---------------------------------------------s---------------------------]



Вступление - ритм-часть (также после куплета)
Just a rough notation here.

e[-------------------------------------------------------------------------]
B[-------------------------------------------------------------------------]
G[-/7---7----5--7--7---x-7---7----5--7--7----------------------------------]
D[-/7---7----5--7--7---x-7---7----5--7--7----------------------------------]
A[-/5--x----x-5--x---xx--5--x----x-5--x------------------------------------]
E[-------5--------------------5--------------------------------------------]



Соло
e[-------------------------------13--------------2-------------------------]
B[------10-------13-------13-15~----15~\---------t-------------------------]
G[-9/11----11/14----11/14------------------------i-------------------------]
D[-----------------------------------------------m-------------------------]
A[-----------------------------------------------e-------------------------]
E[-----------------------------------------------s-------------------------]
                                                 
let the last B--15~- ring

then

e[----12-----------------12---------------12-----------------12------------]
B[15~----15p13----15-15~----15p13-----15~----15p13----15-15~----15p13------]
G[-------------14-----------------14~--------------14-----------------14~--]
D[-------------------------------------------------------------------------]
A[-------------------------------------------------------------------------]
E[-------------------------------------------------------------------------]


e[-------------------------------------------------------------------------]
B[15--15--17/17~-14-15p14------/15-13\-11-p10-10h11p10\8~------------------]
G[--16--16---------------16p14-/14-12\-10-----------------10~9~9h10p9\7----]
D[---------------------------------------------------------------------10p7]
A[-------------------------------------------------------------------------]
E[-------------------------------------------------------------------------]


e[-------------------------------13--------------2-------------------------]
B[------10-------13-------13-15~----15~\---------t-------------------------]
G[-9/11----11/14----11/14------------------------i-------------------------]
D[-----------------------------------------------m-------------------------]
A[-----------------------------------------------e-------------------------]
E[-----------------------------------------------s-------------------------]

Если что непонятно, то пишите. Объясню.
 


Эта страница является частью сайта о Dire Straits. Навигация без фреймов - невозможна. Если вы не видите меню слева, то нажмите

раскрутка сайтов описание новости. Купить телефон nokia n8 по низкой цене Рассылка 'Все о группе Dire Straits. Новости сайта.'  TopList